thomas graves (dtk4life) wrote,
thomas graves
dtk4life

guitar solo:

Solo:

D ----------------------------------------22v----------------------------------15/17h18p17-------------------
A -15--17-15---1515h17p151718v-------------------------------------------------------------18-18-18-18-17-17-
F -----------15-------------------------------------18v------------------------------------------------------
C -----------------------------17p15h17p15----18^^-----17h18p17h19hp17h18p1715-------------------------------
G -----------------------------------------------------------------------------------------------------------
C -----------------------------------------------------------------------------------------------------------


D ---------------------------------------20-18p17h18p17—-18p17h18p17---------------------------------
A -15h17p15h17p15-15h18p15h18p15-17171818--------------18-----------18-1717161617--------------------
F -------------------------------------------------------------------------------17v-1415b^^---------
C ------------------------------------------------------------------------------------------15^1415v-
G ---------------------------------------------------------------------------------------------------
C ---------------------------------------------------------------------------------------------------


D -------------------------------------------------------------------1010h1112-1211p109h1011^10------------------
A ---------------------------------------------------------------------------------------------------------------
F -14h15p14-1514-15v-------------------------------------------------------------------------------12p1013h1510v-
C -------------------15p14h1615v-14h15-15^^14h1515h16-10h11p10h11-10v--------------------------8h9---------------
G ---------------------------------------------------------------------------------------------------------------
C ---------------------------------------------------------------------------------------------------------------


D -20b19r20h22^p20\19-1720v----------------------------------------------------------------------------------19v-
A ---------------------------------------------------------------------------------------------------------------
F -----------------------------------------------------------1715-1917-17h18p1719p17h19p17-(1719171917191719)----
C ---------------------------------------------------------------------------------------------------------------
G -------------------------151414-171614-10v--15-17-19h21^19v----------------------------------------------------
C ---------------------------------------------------------------------------------------------------------------
play that shit nigga!
do i dare you
come on do it
bye
Subscribe
  • Post a new comment

    Error

    default userpic
    When you submit the form an invisible reCAPTCHA check will be performed.
    You must follow the Privacy Policy and Google Terms of use.
  • 0 comments